Something Better Change

 

Intro Tab

-F#---------------- B------------------- Rpt------ Rpt

||--------------------|--------------------|-----------|----------|

||--------------------|--------------------|-----------|----------|

||--------------------|--------------------|-----------|----------|

||--------------------|---------------H-2-|-----------|----------|

||--------------------|2-2-2-2-2-2-2-4-|-----------|----------|

||2-2-2-2-2-2-2-2-|--------------------|-----------|----------|

 

 

-F#--------- B------------------ F#m------------------ B

||------------|---------------------|---------------2-2-----|----------||

||------------|---------------------|---------------2-2-----|----------||

||------------|---------------------|-3---3----3---3-3-----|-4--------||

||------------|---------------------|-4---4----4---4-4-----|-4--------||

||------------|2-2-2-2-2-2-2-0--|-4-4-4-4-4-4-4-4-----|-2--------||

||2-2-2-2-2-2-2-2-|-------------|-2-2-2-2-2-2-2-2-----|----------||

 

F# ----------------------------B -Bsus4- B

 Don't you like the way I move when you see me

F# ------------------------------B -Bsus 4 -B

Don't you like the things that I say

F# -------------------------------B -Bsus 4 -B

Don't you like the way I seem to enjoy it

F# ---------------------------------B- Bsus4 -B

When you shout things bad I don't care

 

Chorus

E --------------B----------------------- F#

Somethings hap'ning and it's hap'ning right now

E -----------B ----------------F#

You're too blind to see it

E-------------- B----------------------F#

Somethings hap'ning and it's hap'ning right now

E

Ain't got time to wait

F# ----------------------B -Bsus4 -B

I said something better change (x4)

 

End Riff

F#-- E-- / --G-- F# --x4

B

change!

Inflammable Material for all your Punk and Ska CDs

 

Go Buy some decent Tab here

Chord Sheet Menu

Stranglers Main Page

Index