Hot Club - The Stranglers

 

 

Intro (Keyboard for Guitar)

 

1------5-5-5-7-8-7-5-0-----1-3-5-3-1-0----5-5-5-3-1-0----------1-1-1-0-----------------

2-------------------------------------------------------------------- 3-1-------------3-1-0---------

3-----------------------------------------------------------------------------------------------2------ x 2

4-------------------------------------------------------------------------------------------------------

5-------------------------------------------------------------------------------------------------------

6--------------------------------------------------------------------------------------------------------

 

Verse

 

-------------------------------------0--------------

------3^5-5-6-3-0-1-3-3-3-3-----1-0---------

--------------------------------------------2-------

----------------------------------------------------- x 2

-----------------------------------------------------

-----------------------------------------------------

 

-----------------3-3-3------------1-0---------------3-3-3---1-0---

------1-0---------------1(or3)---------1-0----------------1--------

------------2-0----------------------------------2-0-------------------

-------------------------------------------------------------------------

-------------------------------------------------------------------------

-------------------------------------------------------------------------

 

--------------1-0------------------1-0------------------------------------

------1-3-1-------3-1-0-1-3-1--------3-1-3^5-5-5-3-1-------------

------------------------------------------------------------------2---0-2---

--------------------------------------------------------------------2--------

------------------------------------------------------------------------------

------------------------------------------------------------------------------

 

Middle 8

 

---------------------------------------------------------------------------------

----------1-3-1-3^6-6-6-6-6-5-3-1-1-3-1-3^6-6-6-6-6-5-3-1--------

---------------------------------------------------------------------------------

---------------------------------------------------------------------------------

---------------------------------------------------------------------------------

---------------------------------------------------------------------------------

 

------0-1-3-1-0-1-3-1-0-1-0-1-5-3-5-3--------------------------------

--------------------------------------------------3-1-3-1-0-1-0-------------

----------------------------------------------------------------------2-4-2-0--

----------------------------------------------------------------------------------

----------------------------------------------------------------------------------

----------------------------------------------------------------------------------

 Inflammable Material for all your Punk and Ska CDs

Go Buy some decent Tab here

Chord Sheet Menu

Stranglers Main Page

Index